In My Place

歌手:网络 来源:文本 2007-10-14 曲谱热度:°

吉它谱子 In My Place?? 演唱:Coldplay
调子:Key = A
----------------

Intro (LEAD)
E---12---12--------9----9--
B---------------12---12----
G------9----9--------------
D--------------------------x3? (Riff 1)
A--------------------------
E--------------------------

E---12---12------8/9------9----9-----
B----------------------12---12-------
G------9-----------------------------
D------------------------------------ (Riff 2)
A------------------------------------
E------------------------------------

Then Start Over Again but Don’t play the (Riff 2) Play This:


E---12---12------8/9------9----9-------
B----------------------12---12-----10--
G------9-------------------------------
D--------------------------------------
A--------------------------------------
E--------------------------------------


Verse:

E------12--
B----------
G----------
D----------(Riff 3)
A----------
E----------

E-12------------
B--------7---9--
G-----9---------
D---------------(Riff 4)
A---------------
E---------------

E------------
B------------
G------------
D------7-----(Riff 5)
A-7h-9-------
E------------

Chords Used For Verse:
A???? E????? F#m????? E

In my place
In my place
The lines that
I couldn’t change
I was lost, oh yeah
And I was lost
I was lost
Crossed lines
I shouldn’t have crossed
I was lost, oh yeah

Chords Used for This:
D??? A???? E???? D

Yeah (Riff 5), How l-(Riff 3)-ong must you
Wait for it?

Yeah (Riff 5), how l-(Riff 3)-ong must you
Pay for it?

Yeah, How l-(Riff 3)-ong must you
Wait for it?

A For i-(Riff 4)-t?


E---12---12--------9----9--
B---------------12---12----
G------9----9--------------
D--------------------------x3?
A--------------------------
E--------------------------

E---12---12------8/9------9----9-------
B----------------------12---12-----10--
G------9----9--------------------------
D--------------------------------------
A--------------------------------------
E--------------------------------------

Verse:
I was scared, I was scared,
Tired and underprepared,
But I’ll wait for it.


Play This The Next Verses
Im not sure if its right though.

E--5------5--4-----4--4-----4--4-----4-
B--------------------------------------
G-----6--------4--------4--------4-----
D--------------------------------------
A--------------------------------------
E--------------------------------------

If you go, if you go,
Leaving me here on my own,
Well I wait for you, yeah.

Yeah (Riff 5), how l-(Riff 3)-ong must you wait for it?

Yeah (Riff 5), how l-(Riff 3)-ong must you pay for it?

Yeah, how l-(Riff 3)-ong must you wait for it?

A for i(riff 4)t?

Solo:

E---12---12--------9----9--
B---------------12---12----
G------9----9--------------
D--------------------------x3? (Riff 1)
A--------------------------
E--------------------------

E---12---12------8/9------9----10----
B----------------------12---12-------
G------9-----------------------------
D------------------------------------ (Riff 2)
A------------------------------------
E------------------------------------

E---12---12--------9----9--
B---------------12---12----
G------9----9--------------
D--------------------------
A--------------------------
E--------------------------

E---12---12------8/9------9----10-----
B----------------------12---12-------
G------9-----------------------------
D------------------------------------
A------------------------------------
E------------------------------------

E---12---12--------9----9--
B---------------12---12----
G------9----9--------------
D--------------------------
A--------------------------
E--------------------------

E---12---12------8/9------9----10-------
B----------------------12---12----------
G------9-------------------------------
D---------------------------------------
A---------------------------------------
E---------------------------------------


Keep On playing the solo:

Please, please, please,
Come on and sing to me,
To me, me.

Come on and sing it out, out, out.
Come on and sing it now, now, now.
Come on and sing it.

Just Orchestra for this verse:

In my place, in my place,
Were lines that I couldn’t change,
I was lost, oh yeah.
Oh yeah.

1.本站遵循行业规范,任何转载的曲谱和教程都会明确标注作者和来源;2.本站的原创曲谱,请转载时务必注明文章作者和来源,不尊重原创的行为我们将追究责任;3.作者投稿可能会经我们编辑修改或补充。

C推荐365bet体育在线中文网 8
自动滚屏
全屏阅谱
关闭
自动滚屏